  0
SECTION
  2
HEADER
  9
$ACADVER
  1
AC1015
  9
$ACADMAINTVER
 70
     6
  9
$DWGCODEPAGE
  3
ANSI_1254
  9
$INSBASE
 10
0.0
 20
0.0
 30
0.0
  9
$EXTMIN
 10
0.0
 20
0.0
 30
0.0
  9
$EXTMAX
 10
279.4
 20
215.9
 30
0.0
  9
$LIMMIN
 10
0.0
 20
0.0
  9
$LIMMAX
 10
279.4
 20
215.9
  9
$ORTHOMODE
 70
     0
  9
$REGENMODE
 70
     1
  9
$FILLMODE
 70
     1
  9
$QTEXTMODE
 70
     0
  9
$MIRRTEXT
 70
     1
  9
$LTSCALE
 40
1.0
  9
$ATTMODE
 70
     1
  9
$TEXTSIZE
 40
3.5
  9
$TRACEWID
 40
1.0
  9
$TEXTSTYLE
  7
Standard
  9
$CLAYER
  8
0
  9
$CELTYPE
  6
ByLayer
  9
$CECOLOR
 62
   256
  9
$CELTSCALE
 40
1.0
  9
$DISPSILH
 70
     0
  9
$DIMSCALE
 40
1.0
  9
$DIMASZ
 40
3.5
  9
$DIMEXO
 40
1.0
  9
$DIMDLI
 40
3.75
  9
$DIMRND
 40
0.0
  9
$DIMDLE
 40
0.0
  9
$DIMEXE
 40
1.0
  9
$DIMTP
 40
0.0
  9
$DIMTM
 40
0.0
  9
$DIMTXT
 40
3.5
  9
$DIMCEN
 40
2.5
  9
$DIMTSZ
 40
0.0
  9
$DIMTOL
 70
     0
  9
$DIMLIM
 70
     0
  9
$DIMTIH
 70
     1
  9
$DIMTOH
 70
     1
  9
$DIMSE1
 70
     0
  9
$DIMSE2
 70
     0
  9
$DIMTAD
 70
     1
  9
$DIMZIN
 70
     0
  9
$DIMBLK
  1

  9
$DIMASO
 70
     1
  9
$DIMSHO
 70
     1
  9
$DIMPOST
  1

  9
$DIMAPOST
  1

  9
$DIMALT
 70
     0
  9
$DIMALTD
 70
     3
  9
$DIMALTF
 40
0.0393700787
  9
$DIMLFAC
 40
1.0
  9
$DIMTOFL
 70
     1
  9
$DIMTVP
 40
0.0
  9
$DIMTIX
 70
     0
  9
$DIMSOXD
 70
     0
  9
$DIMSAH
 70
     0
  9
$DIMBLK1
  1

  9
$DIMBLK2
  1

  9
$DIMSTYLE
  2
ISO-25
  9
$DIMCLRD
 70
     0
  9
$DIMCLRE
 70
     0
  9
$DIMCLRT
 70
     0
  9
$DIMTFAC
 40
1.0
  9
$DIMGAP
 40
1.524
  9
$DIMJUST
 70
     0
  9
$DIMSD1
 70
     0
  9
$DIMSD2
 70
     0
  9
$DIMTOLJ
 70
     0
  9
$DIMTZIN
 70
     0
  9
$DIMALTZ
 70
     0
  9
$DIMALTTZ
 70
     0
  9
$DIMUPT
 70
     0
  9
$DIMDEC
 70
     2
  9
$DIMTDEC
 70
     2
  9
$DIMALTU
 70
     2
  9
$DIMALTTD
 70
     3
  9
$DIMTXSTY
  7
Standard
  9
$DIMAUNIT
 70
     0
  9
$DIMADEC
 70
     2
  9
$DIMALTRND
 40
0.0
  9
$DIMAZIN
 70
     0
  9
$DIMDSEP
 70
    44
  9
$DIMATFIT
 70
     3
  9
$DIMFRAC
 70
     0
  9
$DIMLDRBLK
  1

  9
$DIMLUNIT
 70
     2
  9
$DIMLWD
 70
    -2
  9
$DIMLWE
 70
    -2
  9
$DIMTMOVE
 70
     0
  9
$LUNITS
 70
     2
  9
$LUPREC
 70
     2
  9
$SKETCHINC
 40
1.0
  9
$FILLETRAD
 40
10.0
  9
$AUNITS
 70
     0
  9
$AUPREC
 70
     2
  9
$MENU
  1
.
  9
$ELEVATION
 40
0.0
  9
$PELEVATION
 40
0.0
  9
$THICKNESS
 40
0.0
  9
$LIMCHECK
 70
     0
  9
$CHAMFERA
 40
0.0
  9
$CHAMFERB
 40
0.0
  9
$CHAMFERC
 40
0.0
  9
$CHAMFERD
 40
0.0
  9
$SKPOLY
 70
     0
  9
$TDCREATE
 40
2458985.682790451
  9
$TDUCREATE
 40
2458985.557790451
  9
$TDUPDATE
 40
2458985.682790764
  9
$TDUUPDATE
 40
2458985.557790764
  9
$TDINDWG
 40
0.0000000116
  9
$TDUSRTIMER
 40
0.0000000116
  9
$USRTIMER
 70
     1
  9
$ANGBASE
 50
0.0
  9
$ANGDIR
 70
     0
  9
$PDMODE
 70
     0
  9
$PDSIZE
 40
-1.0
  9
$PLINEWID
 40
0.0
  9
$SPLFRAME
 70
     0
  9
$SPLINETYPE
 70
     6
  9
$SPLINESEGS
 70
     8
  9
$HANDSEED
  5
CB
  9
$SURFTAB1
 70
     6
  9
$SURFTAB2
 70
     6
  9
$SURFTYPE
 70
     6
  9
$SURFU
 70
     6
  9
$SURFV
 70
     6
  9
$UCSBASE
  2

  9
$UCSNAME
  2

  9
$UCSORG
 10
0.0
 20
0.0
 30
0.0
  9
$UCSXDIR
 10
1.0
 20
0.0
 30
0.0
  9
$UCSYDIR
 10
0.0
 20
1.0
 30
0.0
  9
$UCSORTHOREF
  2

  9
$UCSORTHOVIEW
 70
     0
  9
$UCSORGTOP
 10
0.0
 20
0.0
 30
0.0
  9
$UCSORGBOTTOM
 10
0.0
 20
0.0
 30
0.0
  9
$UCSORGLEFT
 10
0.0
 20
0.0
 30
0.0
  9
$UCSORGRIGHT
 10
0.0
 20
0.0
 30
0.0
  9
$UCSORGFRONT
 10
0.0
 20
0.0
 30
0.0
  9
$UCSORGBACK
 10
0.0
 20
0.0
 30
0.0
  9
$PUCSBASE
  2

  9
$PUCSNAME
  2

  9
$PUCSORG
 10
0.0
 20
0.0
 30
0.0
  9
$PUCSXDIR
 10
1.0
 20
0.0
 30
0.0
  9
$PUCSYDIR
 10
0.0
 20
1.0
 30
0.0
  9
$PUCSORTHOREF
  2

  9
$PUCSORTHOVIEW
 70
     0
  9
$PUCSORGTOP
 10
0.0
 20
0.0
 30
0.0
  9
$PUCSORGBOTTOM
 10
0.0
 20
0.0
 30
0.0
  9
$PUCSORGLEFT
 10
0.0
 20
0.0
 30
0.0
  9
$PUCSORGRIGHT
 10
0.0
 20
0.0
 30
0.0
  9
$PUCSORGFRONT
 10
0.0
 20
0.0
 30
0.0
  9
$PUCSORGBACK
 10
0.0
 20
0.0
 30
0.0
  9
$USERI1
 70
     0
  9
$USERI2
 70
     0
  9
$USERI3
 70
     0
  9
$USERI4
 70
     0
  9
$USERI5
 70
     0
  9
$USERR1
 40
0.0
  9
$USERR2
 40
0.0
  9
$USERR3
 40
0.0
  9
$USERR4
 40
0.0
  9
$USERR5
 40
0.0
  9
$WORLDVIEW
 70
     1
  9
$SHADEDGE
 70
     3
  9
$SHADEDIF
 70
    70
  9
$TILEMODE
 70
     1
  9
$MAXACTVP
 70
    64
  9
$PINSBASE
 10
0.0
 20
0.0
 30
0.0
  9
$PLIMCHECK
 70
     0
  9
$PEXTMIN
 10
1.0000000000E+20
 20
1.0000000000E+20
 30
1.0000000000E+20
  9
$PEXTMAX
 10
-1.0000000000E+20
 20
-1.0000000000E+20
 30
-1.0000000000E+20
  9
$PLIMMIN
 10
0.0
 20
0.0
  9
$PLIMMAX
 10
420.0
 20
297.0
  9
$UNITMODE
 70
     0
  9
$VISRETAIN
 70
     1
  9
$PLINEGEN
 70
     0
  9
$PSLTSCALE
 70
     1
  9
$TREEDEPTH
 70
  3020
  9
$CMLSTYLE
  2
Standard
  9
$CMLJUST
 70
     0
  9
$CMLSCALE
 40
20.0
  9
$PROXYGRAPHICS
 70
     1
  9
$MEASUREMENT
 70
     1
  9
$CELWEIGHT
370
    -1
  9
$ENDCAPS
280
     0
  9
$JOINSTYLE
280
     0
  9
$LWDISPLAY
290
     1
  9
$INSUNITS
 70
     4
  9
$HYPERLINKBASE
  1

  9
$STYLESHEET
  1

  9
$XEDIT
290
     1
  9
$CEPSNTYPE
380
     0
  9
$PSTYLEMODE
290
     1
  9
$FINGERPRINTGUID
  2
{6a7c9c72-e13d-43fd-b9c6-993ead027721}
  9
$VERSIONGUID
  2
{FAEB1C32-E019-11D5-929B-00C0DF256EC4}
  9
$EXTNAMES
290
     1
  9
$PSVPSCALE
 40
0.0
  9
$OLESTARTUP
290
     0
  0
ENDSEC
  0
SECTION
  2
CLASSES
  0
CLASS
  1
ACDBDICTIONARYWDFLT
  2
AcDbDictionaryWithDefault
  3
ObjectDBX Classes
 90
        0
280
     0
281
     0
  0
CLASS
  1
VISUALSTYLE
  2
AcDbVisualStyle
  3
ObjectDBX Classes
 90
     4095
280
     0
281
     0
  0
CLASS
  1
MATERIAL
  2
AcDbMaterial
  3
ObjectDBX Classes
 90
     1153
280
     0
281
     0
  0
CLASS
  1
SCALE
  2
AcDbScale
  3
ObjectDBX Classes
 90
     1153
280
     0
281
     0
  0
CLASS
  1
TABLESTYLE
  2
AcDbTableStyle
  3
ObjectDBX Classes
 90
     4095
280
     0
281
     0
  0
CLASS
  1
MLEADERSTYLE
  2
AcDbMLeaderStyle
  3
ACDB_MLEADERSTYLE_CLASS
 90
     4095
280
     0
281
     0
  0
CLASS
  1
SUN
  2
AcDbSun
  3
SCENEOE
 90
     1153
280
     0
281
     0
  0
CLASS
  1
ACDBPLACEHOLDER
  2
AcDbPlaceHolder
  3
ObjectDBX Classes
 90
        0
280
     0
281
     0
  0
CLASS
  1
LAYOUT
  2
AcDbLayout
  3
ObjectDBX Classes
 90
        0
280
     0
281
     0
  0
ENDSEC
  0
SECTION
  2
TABLES
  0
TABLE
  2
VPORT
  5
8
330
0
100
AcDbSymbolTable
 70
     1
  0
VPORT
  5
29
330
8
100
AcDbSymbolTableRecord
100
AcDbViewportTableRecord
  2
*Active
 70
     0
 10
0.0
 20
0.0
 11
1.0
 21
1.0
 12
139.7
 22
107.95
 13
0.0
 23
0.0
 14
10.0
 24
10.0
 15
10.0
 25
10.0
 16
0.0
 26
0.0
 36
1.0
 17
0.0
 27
0.0
 37
0.0
 40
215.9
 41
1.2941176471
 42
50.0
 43
0.0
 44
0.0
 50
0.0
 51
0.0
 71
     0
 72
  2000
 73
     1
 74
     3
 75
     0
 76
     0
 77
     0
 78
     0
281
     0
 65
     1
110
0.0
120
0.0
130
0.0
111
1.0
121
0.0
131
0.0
112
0.0
122
1.0
132
0.0
 79
     0
146
0.0
  0
ENDTAB
  0
TABLE
  2
LTYPE
  5
5
330
0
100
AcDbSymbolTable
 70
     6
  0
LTYPE
  5
14
330
5
100
AcDbSymbolTableRecord
100
AcDbLinetypeTableRecord
  2
ByBlock
 70
     0
  3

 72
    65
 73
     0
 40
0.0
  0
LTYPE
  5
15
330
5
100
AcDbSymbolTableRecord
100
AcDbLinetypeTableRecord
  2
ByLayer
 70
     0
  3

 72
    65
 73
     0
 40
0.0
  0
LTYPE
  5
16
330
5
100
AcDbSymbolTableRecord
100
AcDbLinetypeTableRecord
  2
Continuous
 70
     0
  3
Solid line
 72
    65
 73
     0
 40
0.0
  0
LTYPE
  5
6E
330
5
100
AcDbSymbolTableRecord
100
AcDbLinetypeTableRecord
  2
HIDDEN
 70
     0
  3
Hidden __ __ __ __ __ __ __ __ __ __ __ __ __ __
 72
    65
 73
     2
 40
1.905
 49
1.27
 74
     0
 49
-0.635
 74
     0
  0
LTYPE
  5
6F
330
5
100
AcDbSymbolTableRecord
100
AcDbLinetypeTableRecord
  2
PHANTOM
 70
     0
  3
Phantom ______  __  __  ______  __  __  ______
 72
    65
 73
     6
 40
12.7
 49
6.35
 74
     0
 49
-1.27
 74
     0
 49
1.27
 74
     0
 49
-1.27
 74
     0
 49
1.27
 74
     0
 49
-1.27
 74
     0
  0
LTYPE
  5
70
330
5
100
AcDbSymbolTableRecord
100
AcDbLinetypeTableRecord
  2
CENTER
 70
     0
  3
Center ____ _ ____ _ ____ _ ____ _ ____ _ ____
 72
    65
 73
     4
 40
10.16
 49
6.35
 74
     0
 49
-1.27
 74
     0
 49
1.27
 74
     0
 49
-1.27
 74
     0
  0
LTYPE
  5
71
330
5
100
AcDbSymbolTableRecord
100
AcDbLinetypeTableRecord
  2
CENTERX2
 70
     0
  3
Center (2x) ________  __  ________  __  _____
 72
    65
 73
     4
 40
20.32
 49
12.7
 74
     0
 49
-2.54
 74
     0
 49
2.54
 74
     0
 49
-2.54
 74
     0
  0
LTYPE
  5
72
330
5
100
AcDbSymbolTableRecord
100
AcDbLinetypeTableRecord
  2
DOT2
 70
     0
  3
Dot (.5x) ........................................
 72
    65
 73
     2
 40
0.635
 49
0.0
 74
     0
 49
-0.635
 74
     0
  0
ENDTAB
  0
TABLE
  2
LAYER
  5
2
330
0
100
AcDbSymbolTable
 70
    17
  0
LAYER
  5
10
330
2
100
AcDbSymbolTableRecord
100
AcDbLayerTableRecord
  2
0
 70
     0
 62
     7
  6
Continuous
370
    -3
390
F
  0
LAYER
  5
73
330
2
100
AcDbSymbolTableRecord
100
AcDbLayerTableRecord
  2
FORMAT
 70
     0
 62
     7
  6
Continuous
370
    -3
390
F
  0
LAYER
  5
74
330
2
100
AcDbSymbolTableRecord
100
AcDbLayerTableRecord
  2
YARDIMCI_GEOMETRI
 70
     0
 62
    -6
  6
Continuous
290
     0
370
    -3
390
F
  0
LAYER
  5
75
330
2
100
AcDbSymbolTableRecord
100
AcDbLayerTableRecord
  2
SAYFA_CERCEVESI
 70
     0
 62
     7
  6
Continuous
370
    25
390
F
  0
LAYER
  5
76
330
2
100
AcDbSymbolTableRecord
100
AcDbLayerTableRecord
  2
ANTET
 70
     0
 62
     7
  6
Continuous
370
    -3
390
F
  0
LAYER
  5
77
330
2
100
AcDbSymbolTableRecord
100
AcDbLayerTableRecord
  2
OLCU
 70
     0
 62
   150
  6
Continuous
370
    -3
390
F
  0
LAYER
  5
78
330
2
100
AcDbSymbolTableRecord
100
AcDbLayerTableRecord
  2
METIN
 70
     0
 62
    96
  6
Continuous
370
    -3
390
F
  0
LAYER
  5
79
330
2
100
AcDbSymbolTableRecord
100
AcDbLayerTableRecord
  2
BALON
 70
     0
 62
     5
  6
Continuous
370
    -3
390
F
  0
LAYER
  5
7A
330
2
100
AcDbSymbolTableRecord
100
AcDbLayerTableRecord
  2
VURGU
 70
     0
 62
     7
  6
Continuous
370
    -3
390
F
  0
LAYER
  5
7B
330
2
100
AcDbSymbolTableRecord
100
AcDbLayerTableRecord
  2
SILIK
 70
     0
 62
     7
  6
Continuous
370
    -3
390
F
  0
LAYER
  5
7C
330
2
100
AcDbSymbolTableRecord
100
AcDbLayerTableRecord
  2
MODEL
 70
     0
 62
     7
  6
Continuous
370
    -3
390
F
  0
LAYER
  5
7D
330
2
100
AcDbSymbolTableRecord
100
AcDbLayerTableRecord
  2
DETAYLANDıRMA
 70
     0
 62
   190
  6
Continuous
370
    -3
390
F
  0
LAYER
  5
7E
330
2
100
AcDbSymbolTableRecord
100
AcDbLayerTableRecord
  2
TOLERANS
 70
     0
 62
   230
  6
Continuous
370
    -3
390
F
  0
LAYER
  5
7F
330
2
100
AcDbSymbolTableRecord
100
AcDbLayerTableRecord
  2
MERKEZ_CIZGILERI
 70
     0
 62
    30
  6
Continuous
370
    -3
390
F
  0
LAYER
  5
80
330
2
100
AcDbSymbolTableRecord
100
AcDbLayerTableRecord
  2
KESIT-DETAY_CIZGILERI
 70
     0
 62
     7
  6
Continuous
370
    -3
390
F
  0
LAYER
  5
81
330
2
100
AcDbSymbolTableRecord
100
AcDbLayerTableRecord
  2
\U+041E\U+0421\U+0415\U+0412\U+042B\U+0415
 70
     0
 62
     7
  6
Continuous
370
    -3
390
F
  0
LAYER
  5
82
330
2
100
AcDbSymbolTableRecord
100
AcDbLayerTableRecord
  2
\U+0412\U+041E\U+0414\U+042F\U+041D\U+042B\U+0415_\U+0417\U+041D\U+0410\U+041A\U+0418
 70
     0
 62
    11
  6
Continuous
370
    -3
390
F
  0
ENDTAB
  0
TABLE
  2
STYLE
  5
3
330
0
100
AcDbSymbolTable
 70
     1
  0
STYLE
  5
11
330
3
100
AcDbSymbolTableRecord
100
AcDbTextStyleTableRecord
  2
Standard
 70
     0
 40
0.0
 41
1.0
 50
0.0
 71
     0
 42
3.5
  3
txt
  4

  0
ENDTAB
  0
TABLE
  2
VIEW
  5
6
330
0
100
AcDbSymbolTable
 70
     0
  0
ENDTAB
  0
TABLE
  2
UCS
  5
7
330
0
100
AcDbSymbolTable
 70
     0
  0
ENDTAB
  0
TABLE
  2
APPID
  5
9
330
0
100
AcDbSymbolTable
 70
     1
  0
APPID
  5
12
330
9
100
AcDbSymbolTableRecord
100
AcDbRegAppTableRecord
  2
ACAD
 70
     0
  0
ENDTAB
  0
TABLE
  2
DIMSTYLE
  5
A
330
0
100
AcDbSymbolTable
 70
     1
100
AcDbDimStyleTable
  0
DIMSTYLE
105
27
330
A
100
AcDbSymbolTableRecord
100
AcDbDimStyleTableRecord
  2
ISO-25
 70
     0
 41
2.5
 42
0.625
 43
3.75
 44
1.25
 73
     0
 74
     0
 77
     1
 78
     8
140
2.5
141
2.5
143
0.0393700787
147
0.625
171
     3
172
     1
178
     0
271
     2
272
     2
274
     3
278
    44
283
     0
284
     8
340
11
  0
ENDTAB
  0
TABLE
  2
BLOCK_RECORD
  5
1
330
0
100
AcDbSymbolTable
 70
     3
  0
BLOCK_RECORD
  5
1F
330
1
100
AcDbSymbolTableRecord
100
AcDbBlockTableRecord
  2
*Model_Space
340
22
  0
BLOCK_RECORD
  5
1B
330
1
100
AcDbSymbolTableRecord
100
AcDbBlockTableRecord
  2
*Paper_Space
340
1E
  0
BLOCK_RECORD
  5
23
330
1
100
AcDbSymbolTableRecord
100
AcDbBlockTableRecord
  2
*Paper_Space0
340
26
  0
BLOCK_RECORD
  5
88
330
1
100
AcDbSymbolTableRecord
100
AcDbBlockTableRecord
  2
SW_CENTERMARKSYMBOL_0
340
0
102
{BLKREFS
331
93
102
}
  0
BLOCK_RECORD
  5
B2
330
1
100
AcDbSymbolTableRecord
100
AcDbBlockTableRecord
  2
SW_CENTERMARKSYMBOL_1
340
0
102
{BLKREFS
331
BD
102
}
  0
ENDTAB
  0
ENDSEC
  0
SECTION
  2
BLOCKS
  0
BLOCK
  5
20
330
1F
100
AcDbEntity
  8
0
100
AcDbBlockBegin
  2
*Model_Space
 70
     0
 10
0.0
 20
0.0
 30
0.0
  3
*Model_Space
  1

  0
ENDBLK
  5
21
330
1F
100
AcDbEntity
  8
0
100
AcDbBlockEnd
  0
BLOCK
  5
1C
330
1B
100
AcDbEntity
 67
     1
  8
0
100
AcDbBlockBegin
  2
*Paper_Space
 70
     0
 10
0.0
 20
0.0
 30
0.0
  3
*Paper_Space
  1

  0
ENDBLK
  5
1D
330
1B
100
AcDbEntity
 67
     1
  8
0
100
AcDbBlockEnd
  0
BLOCK
  5
24
330
23
100
AcDbEntity
  8
0
100
AcDbBlockBegin
  2
*Paper_Space0
 70
     0
 10
0.0
 20
0.0
 30
0.0
  3
*Paper_Space0
  1

  0
ENDBLK
  5
25
330
23
100
AcDbEntity
  8
0
100
AcDbBlockEnd
  0
BLOCK
  5
89
330
88
100
AcDbEntity
  8
0
100
AcDbBlockBegin
  2
SW_CENTERMARKSYMBOL_0
 70
     0
 10
0.0
 20
0.0
 30
0.0
  3
SW_CENTERMARKSYMBOL_0
  1

  0
LINE
  5
8B
330
88
100
AcDbEntity
  8
FORMAT
 62
     0
100
AcDbLine
 10
0.0
 20
0.0
 30
0.0
 11
0.0
 21
2.5
 31
0.0
  0
LINE
  5
8C
330
88
100
AcDbEntity
  8
FORMAT
 62
     0
100
AcDbLine
 10
0.0
 20
0.0
 30
0.0
 11
-2.5
 21
0.0
 31
0.0
  0
LINE
  5
8D
330
88
100
AcDbEntity
  8
FORMAT
 62
     0
100
AcDbLine
 10
0.0
 20
0.0
 30
0.0
 11
0.0
 21
-2.5
 31
0.0
  0
LINE
  5
8E
330
88
100
AcDbEntity
  8
FORMAT
 62
     0
100
AcDbLine
 10
0.0
 20
0.0
 30
0.0
 11
2.5
 21
0.0
 31
0.0
  0
LINE
  5
8F
330
88
100
AcDbEntity
  8
FORMAT
 62
     0
100
AcDbLine
 10
0.0
 20
5.0
 30
0.0
 11
0.0
 21
92.5
 31
0.0
  0
LINE
  5
90
330
88
100
AcDbEntity
  8
FORMAT
 62
     0
100
AcDbLine
 10
-5.0
 20
0.0
 30
0.0
 11
-92.5
 21
0.0
 31
0.0
  0
LINE
  5
91
330
88
100
AcDbEntity
  8
FORMAT
 62
     0
100
AcDbLine
 10
0.0
 20
-5.0
 30
0.0
 11
0.0
 21
-92.5
 31
0.0
  0
LINE
  5
92
330
88
100
AcDbEntity
  8
FORMAT
 62
     0
100
AcDbLine
 10
5.0
 20
0.0
 30
0.0
 11
92.5
 21
0.0
 31
0.0
  0
ENDBLK
  5
8A
330
88
100
AcDbEntity
  8
0
100
AcDbBlockEnd
  0
BLOCK
  5
B3
330
B2
100
AcDbEntity
  8
0
100
AcDbBlockBegin
  2
SW_CENTERMARKSYMBOL_1
 70
     0
 10
0.0
 20
0.0
 30
0.0
  3
SW_CENTERMARKSYMBOL_1
  1

  0
LINE
  5
B5
330
B2
100
AcDbEntity
  8
FORMAT
 62
     0
100
AcDbLine
 10
0.0
 20
0.0
 30
0.0
 11
0.0
 21
2.5
 31
0.0
  0
LINE
  5
B6
330
B2
100
AcDbEntity
  8
FORMAT
 62
     0
100
AcDbLine
 10
0.0
 20
0.0
 30
0.0
 11
-2.5
 21
0.0
 31
0.0
  0
LINE
  5
B7
330
B2
100
AcDbEntity
  8
FORMAT
 62
     0
100
AcDbLine
 10
0.0
 20
0.0
 30
0.0
 11
0.0
 21
-2.5
 31
0.0
  0
LINE
  5
B8
330
B2
100
AcDbEntity
  8
FORMAT
 62
     0
100
AcDbLine
 10
0.0
 20
0.0
 30
0.0
 11
2.5
 21
0.0
 31
0.0
  0
LINE
  5
B9
330
B2
100
AcDbEntity
  8
FORMAT
 62
     0
100
AcDbLine
 10
0.0
 20
5.0
 30
0.0
 11
0.0
 21
82.5
 31
0.0
  0
LINE
  5
BA
330
B2
100
AcDbEntity
  8
FORMAT
 62
     0
100
AcDbLine
 10
-5.0
 20
0.0
 30
0.0
 11
-82.5
 21
0.0
 31
0.0
  0
LINE
  5
BB
330
B2
100
AcDbEntity
  8
FORMAT
 62
     0
100
AcDbLine
 10
0.0
 20
-5.0
 30
0.0
 11
0.0
 21
-82.5
 31
0.0
  0
LINE
  5
BC
330
B2
100
AcDbEntity
  8
FORMAT
 62
     0
100
AcDbLine
 10
5.0
 20
0.0
 30
0.0
 11
82.5
 21
0.0
 31
0.0
  0
ENDBLK
  5
B4
330
B2
100
AcDbEntity
  8
0
100
AcDbBlockEnd
  0
ENDSEC
  0
SECTION
  2
ENTITIES
  0
LINE
  5
83
330
1F
100
AcDbEntity
  8
0
  6
Continuous
 62
     7
370
    25
100
AcDbLine
 10
108.2999533442
 20
27.2274616748
 30
0.0
 11
289.0664578193
 21
27.2274616748
 31
0.0
  0
LINE
  5
84
330
1F
100
AcDbEntity
  8
0
  6
Continuous
 62
     7
370
    25
100
AcDbLine
 10
289.0664578193
 20
187.2274616748
 30
0.0
 11
108.3795017913
 21
187.2274616748
 31
0.0
  0
CIRCLE
  5
85
330
1F
100
AcDbEntity
  8
0
  6
Continuous
 62
     7
370
    25
100
AcDbCircle
 10
67.0664578193
 20
107.2274616748
 30
0.0
 40
73.6
  0
CIRCLE
  5
86
330
1F
100
AcDbEntity
  8
0
  6
Continuous
 62
     7
370
    25
100
AcDbCircle
 10
67.0664578193
 20
107.2274616748
 30
0.0
 40
90.0
  0
LINE
  5
87
330
1F
100
AcDbEntity
  8
0
  6
Continuous
 62
     7
370
    25
100
AcDbLine
 10
289.0664578193
 20
187.2274616748
 30
0.0
 11
289.0664578193
 21
27.2274616748
 31
0.0
  0
INSERT
  5
93
330
1F
100
AcDbEntity
  8
FORMAT
100
AcDbBlockReference
  2
SW_CENTERMARKSYMBOL_0
 10
67.0664578193
 20
107.2274616748
 30
0.0
  0
LINE
  5
94
330
1F
100
AcDbEntity
  8
0
  6
Continuous
 62
     7
370
    25
100
AcDbLine
 10
-22.9335421807
 20
-67.9997180127
 30
0.0
 11
-22.9335421807
 21
-525.9997180127
 31
0.0
  0
LINE
  5
95
330
1F
100
AcDbEntity
  8
0
  6
Continuous
 62
     7
370
    25
100
AcDbLine
 10
157.0664578193
 20
-217.0278457869
 30
0.0
 11
157.0664578193
 21
-67.9997180127
 31
0.0
  0
LINE
  5
96
330
1F
100
AcDbEntity
  8
0
  6
Continuous
 62
     7
370
    25
100
AcDbLine
 10
157.0664578193
 20
-525.9997180127
 30
0.0
 11
157.0664578193
 21
-376.9997180127
 31
0.0
  0
LINE
  5
97
330
1F
100
AcDbEntity
  8
0
  6
Continuous
 62
     7
370
    25
100
AcDbLine
 10
157.0664578193
 20
-376.9997180127
 30
0.0
 11
289.0664578193
 21
-376.9997180127
 31
0.0
  0
LINE
  5
98
330
1F
100
AcDbEntity
  8
0
  6
Continuous
 62
     7
370
    25
100
AcDbLine
 10
289.0664578193
 20
-216.9997180127
 30
0.0
 11
157.0414193929
 21
-216.9997180127
 31
0.0
  0
SPLINE
  5
99
330
1F
100
AcDbEntity
  8
0
  6
Continuous
 62
     7
370
    25
100
AcDbSpline
210
0.0
220
0.0
230
1.0
 70
     8
 71
     3
 72
    51
 73
    47
 74
     0
 42
0.000000001
 43
0.00000001
 40
0.0
 40
0.0
 40
0.0
 40
0.0
 40
0.003291728365576
 40
0.024521663883103
 40
0.0429551818111331
 40
0.0613896536019303
 40
0.0803174202505461
 40
0.0992467557207201
 40
0.1185568724141487
 40
0.1378687618304559
 40
0.1575769679142891
 40
0.1772868373166313
 40
0.2063928010653574
 40
0.2355043778174354
 40
0.2654390631668163
 40
0.295376800287875
 40
0.3251772028308899
 40
0.3549757777835112
 40
0.3855874587419264
 40
0.4161785841399977
 40
0.4428060328774813
 40
0.469932741092305
 40
0.4832983080118748
 40
0.4966616323483197
 40
0.5105635843524433
 40
0.5244673043149454
 40
0.5388947909139042
 40
0.5533268285866548
 40
0.5829753623417557
 40
0.6087423104499894
 40
0.634521265360937
 40
0.6609246598635836
 40
0.687330400018313
 40
0.7157051437866029
 40
0.7440783739195852
 40
0.7731099516970553
 40
0.8021369526064838
 40
0.825001843345144
 40
0.8478640229279008
 40
0.8713082518872131
 40
0.8947487291952678
 40
0.9140440781439436
 40
0.9333376950597382
 40
0.9531716575705433
 40
0.9730042539919947
 40
1.0
 40
1.0
 40
1.0
 40
1.0
 10
157.0414161585185
 20
-217.0278457868529
 30
0.0
 10
157.0491953546263
 20
-217.0190890995996
 30
0.0
 10
157.1071463186947
 20
-216.9538563350129
 30
0.0
 10
156.8714515023653
 20
-217.2191175278486
 30
0.0
 10
156.3562701918066
 20
-217.799241185774
 30
0.0
 10
155.5641999723757
 20
-218.6931169851064
 30
0.0
 10
154.5082496390366
 20
-219.888049066327
 30
0.0
 10
153.1832117436492
 20
-221.3935175461498
 30
0.0
 10
151.6131017820319
 20
-223.1861764777883
 30
0.0
 10
149.8049572410986
 20
-225.2637045818759
 30
0.0
 10
147.7861124903074
 20
-227.6008489341159
 30
0.0
 10
145.2274821292599
 20
-230.5908592384079
 30
0.0
 10
142.067058840766
 20
-234.3330920549483
 30
0.0
 10
138.2334046066681
 20
-238.9715509093765
 30
0.0
 10
134.1664230022853
 20
-244.0272848478766
 30
0.0
 10
129.9479204800476
 20
-249.477083417023
 30
0.0
 10
125.6886027807963
 20
-255.2539474201679
 30
0.0
 10
121.4560777882861
 20
-261.4242172201209
 30
0.0
 10
117.3534585463907
 20
-268.0187399229833
 30
0.0
 10
113.7608171504716
 20
-274.8087693689664
 30
0.0
 10
110.8725683598724
 20
-281.746469918553
 30
0.0
 10
109.2370700485952
 20
-287.6020779582504
 30
0.0
 10
108.4981259518241
 20
-292.4410830222434
 30
0.0
 10
108.2492141282594
 20
-296.1363464371721
 30
0.0
 10
108.3430867773715
 20
-299.8903524050687
 30
0.0
 10
108.7824759544884
 20
-303.7103029222858
 30
0.0
 10
109.5637117366703
 20
-307.5089576491766
 30
0.0
 10
111.0269941265155
 20
-312.5756142739664
 30
0.0
 10
113.3784631549477
 20
-318.3569315069113
 30
0.0
 10
116.6423594923556
 20
-324.6755232623294
 30
0.0
 10
120.0831432487718
 20
-330.4202129067589
 30
0.0
 10
123.7203902932973
 20
-335.923516736085
 30
0.0
 10
127.5666411703024
 20
-341.3227788092603
 30
0.0
 10
131.5108013943399
 20
-346.5672652324552
 30
0.0
 10
135.5159515482754
 20
-351.6642481836167
 30
0.0
 10
139.4129853083494
 20
-356.4677941275647
 30
0.0
 10
142.8706467376428
 20
-360.6209100094238
 30
0.0
 10
145.849459328003
 20
-364.1387719697012
 30
0.0
 10
148.3967576497
 20
-367.1088426084409
 30
0.0
 10
150.7104002119697
 20
-369.7790776346611
 30
0.0
 10
152.6249348489916
 20
-371.9699261663359
 30
0.0
 10
154.1416608168469
 20
-373.6956122499249
 30
0.0
 10
155.3173513275355
 20
-375.0273651200953
 30
0.0
 10
156.2115775789309
 20
-376.0371565412501
 30
0.0
 10
156.9103488721738
 20
-376.8241569999089
 30
0.0
 10
157.0093724211159
 20
-376.9355194480883
 30
0.0
 10
157.0664578193462
 20
-376.9997180126735
 30
0.0
  0
LINE
  5
9A
330
1F
100
AcDbEntity
  8
0
  6
Continuous
 62
     7
370
    25
100
AcDbLine
 10
157.0664578193
 20
-525.9997180127
 30
0.0
 11
-22.9335421807
 21
-525.9997180127
 31
0.0
  0
LINE
  5
9B
330
1F
100
AcDbEntity
  8
0
  6
Continuous
 62
     7
370
    25
100
AcDbLine
 10
157.0664578193
 20
-67.9997180127
 30
0.0
 11
-22.9335421807
 21
-67.9997180127
 31
0.0
  0
LINE
  5
9C
330
1F
100
AcDbEntity
  8
0
  6
Continuous
 62
     7
370
    25
100
AcDbLine
 10
289.0664578193
 20
-216.9997180127
 30
0.0
 11
289.0664578193
 21
-376.9997180127
 31
0.0
  0
LINE
  5
9D
330
1F
100
AcDbEntity
  8
0
  6
Continuous
 62
     7
370
    25
100
AcDbLine
 10
157.0664578193
 20
583.0719334855
 30
0.0
 11
157.0664578193
 21
732.0719334855
 31
0.0
  0
LINE
  5
9E
330
1F
100
AcDbEntity
  8
0
  6
Continuous
 62
     7
370
    25
100
AcDbLine
 10
157.0664578193
 20
274.0719334855
 30
0.0
 11
157.0664578193
 21
423.0986291498
 31
0.0
  0
LINE
  5
9F
330
1F
100
AcDbEntity
  8
0
  6
Continuous
 62
     7
370
    25
100
AcDbLine
 10
-22.9335421807
 20
732.0719334855
 30
0.0
 11
-22.9335421807
 21
274.0719334855
 31
0.0
  0
LINE
  5
A0
330
1F
100
AcDbEntity
  8
0
  6
Continuous
 62
     7
370
    25
100
AcDbLine
 10
157.0427354911
 20
423.0719334855
 30
0.0
 11
289.0664578193
 21
423.0719334855
 31
0.0
  0
LINE
  5
A1
330
1F
100
AcDbEntity
  8
0
  6
Continuous
 62
     7
370
    25
100
AcDbLine
 10
289.0664578193
 20
583.0719334855
 30
0.0
 11
157.0664578193
 21
583.0719334855
 31
0.0
  0
SPLINE
  5
A2
330
1F
100
AcDbEntity
  8
0
  6
Continuous
 62
     7
370
    25
100
AcDbSpline
210
0.0
220
0.0
230
1.0
 70
     8
 71
     3
 72
    48
 73
    44
 74
     0
 42
0.000000001
 43
0.00000001
 40
0.0
 40
0.0
 40
0.0
 40
0.0
 40
0.020026472761559
 40
0.040221127660561
 40
0.0609331025125213
 40
0.0818152327536431
 40
0.1018375809756851
 40
0.1219894126389055
 40
0.1425115763291087
 40
0.1631460504609128
 40
0.1909998343180316
 40
0.2190693462426326
 40
0.2477369548411306
 40
0.2765803383519529
 40
0.3051902337435304
 40
0.3339479114642674
 40
0.3631792366916399
 40
0.3925992732707921
 40
0.4216366553590445
 40
0.4510988034988917
 40
0.4751658075764296
 40
0.4998809496447079
 40
0.5239776180150951
 40
0.5487931336119232
 40
0.5670753043809937
 40
0.585507806304243
 40
0.6042871162747483
 40
0.6231474391317311
 40
0.6550664392460434
 40
0.6872178573399707
 40
0.7200349996561468
 40
0.7530812868426797
 40
0.7789488835175002
 40
0.8049564387443856
 40
0.8314581717105514
 40
0.8581603153088648
 40
0.8785568536221331
 40
0.8990727892686589
 40
0.9199993554313669
 40
0.9410846626094117
 40
0.961487659168572
 40
0.9820608092054721
 40
1.0
 40
1.0
 40
1.0
 40
1.0
 10
157.0664578193462
 20
583.071933485487
 30
0.0
 10
157.0343581570321
 20
583.0358302125744
 30
0.0
 10
156.9698892597296
 20
582.9633204717894
 30
0.0
 10
156.4459818619216
 20
582.3735089987783
 30
0.0
 10
155.6046641365319
 20
581.4243865704184
 30
0.0
 10
154.4381999611825
 20
580.1042957365017
 30
0.0
 10
152.9950048840954
 20
578.4639378865023
 30
0.0
 10
151.3023525514822
 20
576.5296205357677
 30
0.0
 10
149.356366229456
 20
574.2906451989307
 30
0.0
 10
146.9285028036508
 20
571.473638370666
 30
0.0
 10
143.964775373124
 20
567.9940727796909
 30
0.0
 10
140.414208171026
 20
563.7511173374163
 30
0.0
 10
136.6045981144434
 20
559.092539014907
 30
0.0
 10
132.615843145571
 20
554.064595768146
 30
0.0
 10
128.5360822664717
 20
548.7118838588603
 30
0.0
 10
124.4254018893806
 20
543.0209538786726
 30
0.0
 10
120.3554783492533
 20
536.9469186439378
 30
0.0
 10
116.4789562972148
 20
530.4898979383966
 30
0.0
 10
112.9829431135286
 20
523.6064641330132
 30
0.0
 10
110.3245069648648
 20
516.7056560130145
 30
0.0
 10
108.6738456262543
 20
509.8023439896743
 30
0.0
 10
108.1142044024157
 20
503.1584661277641
 30
0.0
 10
108.6553302196237
 20
496.4464569842517
 30
0.0
 10
110.059370865521
 20
490.5105423529573
 30
0.0
 10
111.8955296840269
 20
485.3099466448899
 30
0.0
 10
113.8729545161735
 20
480.8024034385198
 30
0.0
 10
116.1117482183142
 20
476.4297125132582
 30
0.0
 10
119.102986174573
 20
471.2172933435306
 30
0.0
 10
122.9034959091752
 20
465.3141264053857
 30
0.0
 10
127.4900284591518
 20
458.8322615484139
 30
0.0
 10
132.1417321907961
 20
452.677962890358
 30
0.0
 10
136.3993986222354
 20
447.305355857329
 30
0.0
 10
140.1815391093977
 20
442.6767061539102
 30
0.0
 10
143.4941927230766
 20
438.7088314392089
 30
0.0
 10
146.6075775356873
 20
435.0433990643421
 30
0.0
 10
149.2273787458286
 20
432.001341785013
 30
0.0
 10
151.3659889161663
 20
429.5412690817276
 30
0.0
 10
153.081712633518
 20
427.5810439899633
 30
0.0
 10
154.5409275676745
 20
425.923067096188
 30
0.0
 10
155.6942611982904
 20
424.6182947142178
 30
0.0
 10
156.5069683487785
 20
423.7016450757658
 30
0.0
 10
156.9920895100007
 20
423.1555799459476
 30
0.0
 10
157.026639035166
 20
423.1167269971028
 30
0.0
 10
157.042732331767
 20
423.0986291498359
 30
0.0
  0
LINE
  5
A3
330
1F
100
AcDbEntity
  8
0
  6
Continuous
 62
     7
370
    25
100
AcDbLine
 10
-22.9335421807
 20
732.0719334855
 30
0.0
 11
157.0664578193
 21
732.0719334855
 31
0.0
  0
LINE
  5
A4
330
1F
100
AcDbEntity
  8
0
  6
Continuous
 62
     7
370
    25
100
AcDbLine
 10
-22.9335421807
 20
274.0719334855
 30
0.0
 11
157.0664578193
 21
274.0719334855
 31
0.0
  0
LINE
  5
A5
330
1F
100
AcDbEntity
  8
0
  6
Continuous
 62
     7
370
    25
100
AcDbLine
 10
289.0664578193
 20
583.0719334855
 30
0.0
 11
289.0664578193
 21
423.0719334855
 31
0.0
  0
LINE
  5
A6
330
1F
100
AcDbEntity
  8
0
  6
Continuous
 62
     7
370
    25
100
AcDbLine
 10
379.9407116313
 20
17.2274616748
 30
0.0
 11
837.9407116313
 21
17.2274616748
 31
0.0
  0
LINE
  5
A7
330
1F
100
AcDbEntity
  8
0
  6
Continuous
 62
     7
370
    25
100
AcDbLine
 10
837.9407116313
 20
197.2274616748
 30
0.0
 11
379.9407116313
 21
197.2274616748
 31
0.0
  0
LINE
  5
A8
330
1F
100
AcDbEntity
  8
0
  6
Continuous
 62
     7
370
    25
100
AcDbLine
 10
837.9407116313
 20
197.2274616748
 30
0.0
 11
837.9407116313
 21
17.2274616748
 31
0.0
  0
LINE
  5
A9
330
1F
100
AcDbEntity
  8
0
  6
Continuous
 62
     7
370
    25
100
AcDbLine
 10
379.9407116313
 20
197.2274616748
 30
0.0
 11
379.9407116313
 21
17.2274616748
 31
0.0
  0
LINE
  5
AA
330
1F
100
AcDbEntity
  8
0
  6
Continuous
 62
     7
370
    25
100
AcDbLine
 10
-93.5425069026
 20
197.2274616748
 30
0.0
 11
-551.5425069026
 21
197.2274616748
 31
0.0
  0
LINE
  5
AB
330
1F
100
AcDbEntity
  8
0
  6
Continuous
 62
     7
370
    25
100
AcDbLine
 10
-551.5425069026
 20
17.2274616748
 30
0.0
 11
-93.5425069026
 21
17.2274616748
 31
0.0
  0
CIRCLE
  5
AC
330
1F
100
AcDbEntity
  8
0
  6
Continuous
 62
     7
370
    25
100
AcDbCircle
 10
-322.5425069026
 20
107.2274616748
 30
0.0
 40
65.39999999999998
  0
CIRCLE
  5
AD
330
1F
100
AcDbEntity
  8
0
  6
Continuous
 62
     7
370
    25
100
AcDbCircle
 10
-322.5425069026
 20
107.2274616748
 30
0.0
 40
80.0
  0
LINE
  5
AE
330
1F
100
AcDbEntity
  8
0
  6
Continuous
 62
     7
370
    25
100
AcDbLine
 10
-551.5425069026
 20
107.2274616748
 30
0.0
 11
-551.5425069026
 21
197.2274616748
 31
0.0
  0
LINE
  5
AF
330
1F
100
AcDbEntity
  8
0
  6
Continuous
 62
     7
370
    25
100
AcDbLine
 10
-551.5425069026
 20
17.2274616748
 30
0.0
 11
-551.5425069026
 21
107.2274616748
 31
0.0
  0
LINE
  5
B0
330
1F
100
AcDbEntity
  8
0
  6
Continuous
 62
     7
370
    25
100
AcDbLine
 10
-93.5425069026
 20
107.2274616748
 30
0.0
 11
-93.5425069026
 21
197.2274616748
 31
0.0
  0
LINE
  5
B1
330
1F
100
AcDbEntity
  8
0
  6
Continuous
 62
     7
370
    25
100
AcDbLine
 10
-93.5425069026
 20
17.2274616748
 30
0.0
 11
-93.5425069026
 21
107.2274616748
 31
0.0
  0
INSERT
  5
BD
330
1F
100
AcDbEntity
  8
FORMAT
100
AcDbBlockReference
  2
SW_CENTERMARKSYMBOL_1
 10
-322.5425069026
 20
107.2274616748
 30
0.0
  0
LINE
  5
BE
330
1F
100
AcDbEntity
  8
0
  6
Continuous
 62
     7
370
    25
100
AcDbLine
 10
643.6837628713
 20
-214.3778628397
 30
0.0
 11
516.7518402085
 21
-141.1016236151
 31
0.0
  0
LINE
  5
BF
330
1F
100
AcDbEntity
  8
0
  6
Continuous
 62
     7
370
    25
100
AcDbLine
 10
840.606745992
 20
-328.0590812225
 30
0.0
 11
803.6967667063
 21
-306.7514037275
 31
0.0
  0
LINE
  5
C0
330
1F
100
AcDbEntity
  8
0
  6
Continuous
 62
     7
370
    25
100
AcDbLine
 10
426.7591542713
 20
-296.9904188436
 30
0.0
 11
750.6140600547
 21
-483.947876451
 31
0.0
  0
LINE
  5
C1
330
1F
100
AcDbEntity
  8
0
  6
Continuous
 62
     7
370
    25
100
AcDbLine
 10
723.1681743425
 20
-353.2395705707
 30
0.0
 11
830.6574048605
 21
-291.1873586112
 31
0.0
  0
LINE
  5
C2
330
1F
100
AcDbEntity
  8
0
  6
Continuous
 62
     7
370
    25
100
AcDbLine
 10
750.6639062496
 20
-152.6195406303
 30
0.0
 11
643.1618194049
 21
-214.6791743892
 31
0.0
  0
SPLINE
  5
C3
330
1F
100
AcDbEntity
  8
0
  6
Continuous
 62
     7
370
    25
100
AcDbSpline
210
0.0
220
0.0
230
1.0
 70
     8
 71
     3
 72
    38
 73
    34
 74
     0
 42
0.000000001
 43
0.00000001
 40
0.0
 40
0.0
 40
0.0
 40
0.0
 40
0.0264987555913796
 40
0.0534490316694195
 40
0.0806258503554936
 40
0.1082568002524221
 40
0.1347500983093727
 40
0.1615795462969915
 40
0.1885693682558179
 40
0.2158726229669963
 40
0.252728369833298
 40
0.2898695651359007
 40
0.3278021537991974
 40
0.3659673254288622
 40
0.4038235487639859
 40
0.441875315661261
 40
0.4805538064786311
 40
0.5194819975826002
 40
0.5579038654837254
 40
0.5968877780303926
 40
0.6287329095450932
 40
0.661435648408357
 40
0.6933200313107263
 40
0.7261555830578439
 40
0.7503463020455322
 40
0.7748932569475189
 40
0.7995844414636574
 40
0.824540163407914
 40
0.8667749489750423
 40
0.9093172668425504
 40
0.9527404619202728
 40
0.996466858364851
 40
1.0
 40
1.0
 40
1.0
 40
1.0
 10
640.7540179434995
 20
-243.1300605280988
 30
0.0
 10
640.7568503815736
 20
-244.6473315125799
 30
0.0
 10
640.7625635205094
 20
-247.7077267307992
 30
0.0
 10
640.8093057787659
 20
-252.6574134344872
 30
0.0
 10
640.8856701602824
 20
-257.8695215934978
 30
0.0
 10
640.9939958720678
 20
-263.2257243880545
 30
0.0
 10
641.1336951464523
 20
-268.6748032068004
 30
0.0
 10
641.3046790145498
 20
-274.1556260384248
 30
0.0
 10
641.5119647338419
 20
-279.7302368182847
 30
0.0
 10
641.7866344598006
 20
-286.0005955309236
 30
0.0
 10
642.1513869524448
 20
-292.9388757130254
 30
0.0
 10
642.6409794223159
 20
-300.5059138026356
 30
0.0
 10
643.2412906264283
 20
-308.015143407586
 30
0.0
 10
643.9761077083837
 20
-315.3849653200658
 30
0.0
 10
644.8762200129195
 20
-322.5446121736164
 30
0.0
 10
645.9936252236362
 20
-329.4889887658446
 30
0.0
 10
647.410746192572
 20
-336.2123715787342
 30
0.0
 10
649.2354342912146
 20
-342.6198838173584
 30
0.0
 10
651.6307023765418
 20
-348.6285387204657
 30
0.0
 10
654.6305123905923
 20
-353.7544055426719
 30
0.0
 10
658.3446972315683
 20
-357.9592687654675
 30
0.0
 10
662.6469024973298
 20
-361.1333411983671
 30
0.0
 10
667.7756423731719
 20
-363.4264731009709
 30
0.0
 10
672.965778142571
 20
-364.6706652538738
 30
0.0
 10
677.9511193042185
 20
-365.2079261990566
 30
0.0
 10
682.5370362294074
 20
-365.2875874129454
 30
0.0
 10
687.2119568750876
 20
-365.0105787216492
 30
0.0
 10
693.0032337044803
 20
-364.2780615073444
 30
0.0
 10
699.8627147465525
 20
-362.8411785064723
 30
0.0
 10
707.6976946657873
 20
-360.4698097834597
 30
0.0
 10
715.3065866967286
 20
-357.364226753422
 30
0.0
 10
720.4780661266537
 20
-354.8848687088331
 30
0.0
 10
722.9704988209863
 20
-353.3364636929946
 30
0.0
 10
723.1568340684933
 20
-353.220704325641
 30
0.0
  0
SPLINE
  5
C4
330
1F
100
AcDbEntity
  8
0
  6
Continuous
 62
     7
370
    25
100
AcDbSpline
210
0.0
220
0.0
230
1.0
 70
     8
 71
     3
 72
    18
 73
    14
 74
     0
 42
0.000000001
 43
0.00000001
 40
0.0
 40
0.0
 40
0.0
 40
0.0
 40
0.0707275884858243
 40
0.1899611440301754
 40
0.2833112368040682
 40
0.3771646085660358
 40
0.4727836422008797
 40
0.56910776100474
 40
0.647852737564845
 40
0.7276370227825176
 40
0.8079759809594788
 40
0.8894814180864065
 40
1.0
 40
1.0
 40
1.0
 40
1.0
 10
643.197637902394
 20
-214.7405361751492
 30
0.0
 10
643.0649080495149
 20
-214.8081268061858
 30
0.0
 10
642.708420358648
 20
-214.989662666128
 30
0.0
 10
642.3011499706981
 20
-215.9053011380597
 30
0.0
 10
641.9161750377978
 20
-217.3334924291828
 30
0.0
 10
641.6182831019972
 20
-219.1197865109177
 30
0.0
 10
641.3656257745098
 20
-221.4004427906445
 30
0.0
 10
641.1703859305977
 20
-224.03977778113
 30
0.0
 10
641.0220285345341
 20
-226.9426405170719
 30
0.0
 10
640.9118931178274
 20
-230.0170276241133
 30
0.0
 10
640.8301016977523
 20
-233.4896158313107
 30
0.0
 10
640.7677970979457
 20
-237.7674241714617
 30
0.0
 10
640.7590514581337
 20
-241.1710935476315
 30
0.0
 10
640.7540179434995
 20
-243.1300605280988
 30
0.0
  0
LWPOLYLINE
  5
C5
330
1F
100
AcDbEntity
  8
0
  6
Continuous
 62
     7
370
    25
100
AcDbPolyline
 90
      101
 70
   128
 43
0.0
 10
535.3951075467
 20
-182.3076561973
 10
535.2695293128
 20
-177.765759007
 10
534.8932902112
 20
-173.3867761526
 10
534.2678750856
 20
-169.1879894788
 10
533.3957521639
 20
-165.1859696783
 10
532.2803633167
 20
-161.396510895
 10
530.9261104743
 20
-157.8345683914
 10
529.3383382539
 20
-154.5141995273
 10
527.5233128671
 20
-151.4485082817
 10
525.48819739
 20
-148.6495935373
 10
523.2410234935
 20
-146.1285013319
 10
520.7906597464
 20
-143.8951812648
 10
518.1467766149
 20
-141.9584472298
 10
515.3198082979
 20
-140.3259426315
 10
512.3209115477
 20
-139.0041102195
 10
509.1619216399
 20
-137.9981666627
 10
505.8553056643
 20
-137.3120819606
 10
502.4141133236
 20
-136.9485637761
 10
498.8519254318
 20
-136.9090467494
 10
495.1828003171
 20
-137.1936868362
 10
491.4212183401
 20
-137.801360692
 10
487.5820247463
 20
-138.7296701059
 10
483.6803710789
 20
-139.9749514645
 10
479.7316553824
 20
-141.5322902114
 10
475.7514614337
 20
-143.395540242
 10
471.7554972399
 20
-145.5573481596
 10
467.7595330461
 20
-148.009182296
 10
463.7793390974
 20
-150.7413663821
 10
459.8306234009
 20
-153.7431177354
 10
455.9289697335
 20
-157.0025898147
 10
452.0897761397
 20
-160.5069189729
 10
448.3281941627
 20
-164.2422752238
 10
444.659069048
 20
-168.1939168226
 10
441.0968811562
 20
-172.3462484454
 10
437.6556888155
 20
-176.6828827364
 10
434.3490728399
 20
-181.186704981
 10
431.1900829321
 20
-185.8399406506
 10
428.191186182
 20
-190.6242255499
 10
425.3642178649
 20
-195.520678292
 10
422.7203347334
 20
-200.509974815
 10
420.2699709863
 20
-205.5724246449
 10
418.0227970898
 20
-210.6880486049
 10
415.9876816127
 20
-215.8366576646
 10
414.1726562259
 20
-220.997932616
 10
412.5848840056
 20
-226.1515042649
 10
411.2306311632
 20
-231.2770338185
 10
410.115242316
 20
-236.3542931531
 10
409.2431193942
 20
-241.3632446459
 10
408.6177042686
 20
-246.2841202537
 10
408.241465167
 20
-251.0974995285
 10
408.1158869331
 20
-255.7843862614
 10
408.241465167
 20
-260.3262834516
 10
408.6177042686
 20
-264.705266306
 10
409.2431193942
 20
-268.9040529799
 10
410.115242316
 20
-272.9060727803
 10
411.2306311632
 20
-276.6955315637
 10
412.5848840056
 20
-280.2574740673
 10
414.1726562259
 20
-283.5778429314
 10
415.9876816127
 20
-286.643534177
 10
418.0227970898
 20
-289.4424489214
 10
420.2699709863
 20
-291.9635411267
 10
422.7203347334
 20
-294.1968611939
 10
425.3642178649
 20
-296.1335952288
 10
428.191186182
 20
-297.7660998272
 10
431.1900829321
 20
-299.0879322391
 10
434.3490728399
 20
-300.093875796
 10
437.6556888155
 20
-300.7799604981
 10
441.0968811562
 20
-301.1434786825
 10
444.659069048
 20
-301.1829957092
 10
448.3281941627
 20
-300.8983556225
 10
452.0897761397
 20
-300.2906817666
 10
455.9289697335
 20
-299.3623723528
 10
459.8306234009
 20
-298.1170909941
 10
463.7793390974
 20
-296.5597522472
 10
467.7595330461
 20
-294.6965022167
 10
471.7554972399
 20
-292.534694299
 10
475.7514614337
 20
-290.0828601626
 10
479.7316553824
 20
-287.3506760766
 10
483.6803710789
 20
-284.3489247233
 10
487.5820247463
 20
-281.0894526439
 10
491.4212183401
 20
-277.5851234857
 10
495.1828003171
 20
-273.8497672349
 10
498.8519254318
 20
-269.898125636
 10
502.4141133236
 20
-265.7457940132
 10
505.8553056643
 20
-261.4091597223
 10
509.1619216399
 20
-256.9053374776
 10
512.3209115477
 20
-252.252101808
 10
515.3198082979
 20
-247.4678169088
 10
518.1467766149
 20
-242.5713641666
 10
520.7906597464
 20
-237.5820676437
 10
523.2410234935
 20
-232.5196178138
 10
525.48819739
 20
-227.4039938537
 10
527.5233128671
 20
-222.2553847941
 10
529.3383382539
 20
-217.0941098427
 10
530.9261104743
 20
-211.9405381938
 10
532.2803633167
 20
-206.8150086402
 10
533.3957521639
 20
-201.7377493055
 10
534.2678750856
 20
-196.7287978127
 10
534.8932902112
 20
-191.807922205
 10
535.2695293128
 20
-186.9945429302
 10
535.3951075467
 20
-182.3076561973
  0
LWPOLYLINE
  5
C6
330
1F
100
AcDbEntity
  8
0
  6
Continuous
 62
     7
370
    25
100
AcDbPolyline
 90
       14
 70
   128
 43
0.0
 10
859.2500133301
 20
-369.2651138047
 10
859.1244350963
 20
-364.7232166144
 10
858.7481959946
 20
-360.34423376
 10
858.1227808691
 20
-356.1454470862
 10
857.2506579473
 20
-352.1434272857
 10
856.1352691001
 20
-348.3539685024
 10
854.7810162577
 20
-344.7920259988
 10
853.1932440373
 20
-341.4716571347
 10
851.3782186506
 20
-338.4059658891
 10
849.3431031734
 20
-335.6070511447
 10
847.0959292769
 20
-333.0859589394
 10
844.6455655298
 20
-330.8526388722
 10
842.0016823983
 20
-328.9159048372
 10
840.606745992
 20
-328.0590812225
  0
LWPOLYLINE
  5
C7
330
1F
100
AcDbEntity
  8
0
  6
Continuous
 62
     7
370
    25
100
AcDbPolyline
 90
       39
 70
   128
 43
0.0
 10
750.6140600547
 20
-483.947876451
 10
752.0460919654
 20
-484.7235574346
 10
755.0449887155
 20
-486.0453898465
 10
758.2039786234
 20
-487.0513334034
 10
761.510594599
 20
-487.7374181055
 10
764.9517869397
 20
-488.1009362899
 10
768.5139748315
 20
-488.1404533166
 10
772.1830999461
 20
-487.8558132299
 10
775.9446819232
 20
-487.248139374
 10
779.7838755169
 20
-486.3198299602
 10
783.6855291843
 20
-485.0745486015
 10
787.6342448808
 20
-483.5172098546
 10
791.6144388295
 20
-481.6539598241
 10
795.6104030234
 20
-479.4921519064
 10
799.6063672172
 20
-477.04031777
 10
803.5865611659
 20
-474.308133684
 10
807.5352768624
 20
-471.3063823307
 10
811.4369305298
 20
-468.0469102513
 10
815.2761241236
 20
-464.5425810931
 10
819.0377061006
 20
-460.8072248423
 10
822.7068312153
 20
-456.8555832434
 10
826.2690191071
 20
-452.7032516206
 10
829.7102114478
 20
-448.3666173297
 10
833.0168274233
 20
-443.862795085
 10
836.1758173312
 20
-439.2095594154
 10
839.1747140813
 20
-434.4252745162
 10
842.0016823983
 20
-429.528821774
 10
844.6455655298
 20
-424.5395252511
 10
847.0959292769
 20
-419.4770754212
 10
849.3431031734
 20
-414.3614514611
 10
851.3782186506
 20
-409.2128424015
 10
853.1932440373
 20
-404.0515674501
 10
854.7810162577
 20
-398.8979958012
 10
856.1352691001
 20
-393.7724662476
 10
857.2506579473
 20
-388.6952069129
 10
858.1227808691
 20
-383.6862554201
 10
858.7481959946
 20
-378.7653798124
 10
859.1244350963
 20
-373.9520005376
 10
859.2500133301
 20
-369.2651138047
  0
LWPOLYLINE
  5
C8
330
1F
100
AcDbEntity
  8
0
  6
Continuous
 62
     7
370
    25
100
AcDbPolyline
 90
       92
 70
   128
 43
0.0
 10
523.7985563352
 20
-189.0022027143
 10
523.6745518968
 20
-184.927600292
 10
523.3031295191
 20
-181.015587683
 10
522.686059199
 20
-177.2848074088
 10
521.8262815574
 20
-173.7530383364
 10
520.7278938265
 20
-170.4371109538
 10
519.3961303239
 20
-167.3528271651
 10
517.8373375093
 20
-164.514884987
 10
516.0589437402
 20
-161.9368085065
 10
514.0694238729
 20
-159.6308834319
 10
511.8782588755
 20
-157.6080985465
 10
509.4958906471
 20
-155.8780933413
 10
506.9336722573
 20
-154.4491120791
 10
504.2038138434
 20
-153.3279645062
 10
501.319324424
 20
-152.5199934014
 10
498.2939499048
 20
-152.0290491151
 10
495.1421075731
 20
-151.8574712202
 10
491.878817393
 20
-152.0060773636
 10
488.5196304282
 20
-152.4741593693
 10
485.0805547345
 20
-153.2594866135
 10
481.5779790736
 20
-154.3583166541
 10
478.0285948136
 20
-155.7654130657
 10
474.4493163869
 20
-157.474070393
 10
470.8572006853
 20
-159.4761461057
 10
467.2693657757
 20
-161.7620994014
 10
463.7029093256
 20
-164.3210366715
 10
460.1748271241
 20
-167.1407634147
 10
456.7019320894
 20
-170.2078423489
 10
453.3007741481
 20
-173.5076574462
 10
449.9875613665
 20
-177.0244835851
 10
446.7780827124
 20
-180.7415614873
 10
443.6876328132
 20
-184.6411775839
 10
440.73093907
 20
-188.7047484284
 10
437.922091475
 20
-192.9129092551
 10
435.2744754661
 20
-197.2456062613
 10
432.8007081394
 20
-201.6821921727
 10
430.5125781226
 20
-206.201524637
 10
428.4209893973
 20
-210.7820669769
 10
426.5359093363
 20
-215.4019908223
 10
424.8663212046
 20
-220.0392801319
 10
423.4201813499
 20
-224.6718361106
 10
422.2043812872
 20
-229.2775825194
 10
421.2247148575
 20
-233.8345708792
 10
420.4858506174
 20
-238.3210850653
 10
419.9913095915
 20
-242.7157447944
 10
419.7434484931
 20
-246.9976075115
 10
419.7434484931
 20
-251.146268191
 10
419.9913095915
 20
-255.1419565753
 10
420.4858506174
 20
-258.9656313896
 10
421.2247148575
 20
-262.5990710823
 10
422.2043812872
 20
-266.0249606585
 10
423.4201813499
 20
-269.2269741942
 10
424.8663212046
 20
-272.1898526367
 10
426.5359093363
 20
-274.899476521
 10
428.4209893973
 20
-277.3429332553
 10
430.5125781226
 20
-279.5085786556
 10
432.8007081394
 20
-281.3860924352
 10
435.2744754661
 20
-282.966527386
 10
437.922091475
 20
-284.2423520158
 10
440.73093907
 20
-285.207486439
 10
443.6876328132
 20
-285.8573313508
 10
446.7780827124
 20
-286.1887899442
 10
449.9875613665
 20
-286.200282668
 10
453.3007741481
 20
-285.8917547541
 10
456.7019320894
 20
-285.2646764787
 10
460.1748271241
 20
-284.3220361551
 10
463.7029093256
 20
-283.0683258939
 10
467.2693657757
 20
-281.5095201954
 10
470.8572006853
 20
-279.6530474786
 10
474.4493163869
 20
-277.5077546814
 10
478.0285948136
 20
-275.083865101
 10
481.5779790736
 20
-272.392929675
 10
485.0805547345
 20
-269.4477719363
 10
488.5196304282
 20
-266.2624269026
 10
491.878817393
 20
-262.8520741936
 10
495.1421075731
 20
-259.2329656931
 10
498.2939499048
 20
-255.4223481012
 10
501.319324424
 20
-251.438380746
 10
504.2038138434
 20
-247.3000490464
 10
506.9336722573
 20
-243.0270740374
 10
509.4958906471
 20
-238.6398183908
 10
511.8782588755
 20
-234.1591893778
 10
514.0694238729
 20
-229.6065392361
 10
516.0589437402
 20
-225.0035634169
 10
517.8373375093
 20
-220.372197196
 10
519.3961303239
 20
-215.7345111428
 10
520.7278938265
 20
-211.1126059432
 10
521.8262815574
 20
-206.5285070802
 10
522.686059199
 20
-202.0040598727
 10
523.3031295191
 20
-197.5608253718
 10
523.6745518968
 20
-193.2199776136
 10
523.7985563352
 20
-189.0022027143
  0
LWPOLYLINE
  5
C9
330
1F
100
AcDbEntity
  8
0
  6
Continuous
 62
     7
370
    25
100
AcDbPolyline
 90
       95
 70
   128
 43
0.0
 10
847.22919805
 20
-254.5597740936
 10
847.1028736285
 20
-250.1237356464
 10
846.7244645595
 20
-245.5616585513
 10
846.0956609098
 20
-240.893918152
 10
845.2192710692
 20
-236.1413617102
 10
844.0992092073
 20
-231.3252152967
 10
842.7404777924
 20
-226.4669889905
 10
841.1491452489
 20
-221.5883808097
 10
839.3323188541
 20
-216.7111798026
 10
837.2981129958
 20
-211.8571687331
 10
835.0556129312
 20
-207.0480267927
 10
832.6148342098
 20
-202.3052327769
 10
829.9866779421
 20
-197.649969155
 10
827.1828821119
 20
-193.1030274646
 10
824.2159691519
 20
-188.6847154509
 10
821.0991900157
 20
-184.414766368
 10
817.8464649956
 20
-180.312250845
 10
814.4723215511
 20
-176.3954917121
 10
810.9918294258
 20
-172.6819821665
 10
807.4205333426
 20
-169.1883076432
 10
803.7743835766
 20
-165.9300717408
 10
800.0696647179
 20
-162.9218265318
 10
796.3229229402
 20
-160.1770075695
 10
792.5508921019
 20
-157.7078738817
 10
788.7704190082
 20
-155.5254532188
 10
784.9983881699
 20
-153.6394928014
 10
781.2516463922
 20
-152.0584157865
 10
777.5469275335
 20
-150.7892836478
 10
773.9007777675
 20
-149.8377646376
 10
770.3294816843
 20
-149.2081084708
 10
766.848989559
 20
-148.9031273445
 10
763.4748461145
 20
-148.9241833787
 10
760.2221210944
 20
-149.2711825319
 10
757.1053419582
 20
-149.9425750216
 10
754.1384289982
 20
-150.9353622461
 10
751.334633168
 20
-152.2451101765
 10
748.7064769003
 20
-153.8659691608
 10
746.2656981789
 20
-155.7907000491
 10
744.0231981143
 20
-158.0107065261
 10
741.988992256
 20
-160.516073504
 10
740.1721658612
 20
-163.2956114056
 10
738.5808333176
 20
-166.33690614
 10
737.2221019028
 20
-169.6263745465
 10
736.1020400409
 20
-173.1493250608
 10
735.2256502003
 20
-176.8900233306
 10
734.5968465506
 20
-180.8317624894
 10
734.2184374816
 20
-184.9569377732
 10
734.0921130601
 20
-189.2471251478
 10
734.2184374816
 20
-193.683163595
 10
734.5968465506
 20
-198.2452406901
 10
735.2256502003
 20
-202.9129810894
 10
736.1020400409
 20
-207.6655375313
 10
737.2221019028
 20
-212.4816839448
 10
738.5808333176
 20
-217.3399102509
 10
740.1721658612
 20
-222.2185184318
 10
741.988992256
 20
-227.0957194388
 10
744.0231981143
 20
-231.9497305084
 10
746.2656981789
 20
-236.7588724487
 10
748.7064769003
 20
-241.5016664645
 10
751.334633168
 20
-246.1569300864
 10
754.1384289982
 20
-250.7038717768
 10
757.1053419582
 20
-255.1221837905
 10
760.2221210944
 20
-259.3921328735
 10
763.4748461145
 20
-263.4946483965
 10
766.848989559
 20
-267.4114075293
 10
770.3294816843
 20
-271.1249170749
 10
773.9007777675
 20
-274.6185915982
 10
777.5469275335
 20
-277.8768275006
 10
781.2516463922
 20
-280.8850727096
 10
784.9983881699
 20
-283.6298916719
 10
788.7704190082
 20
-286.0990253597
 10
792.5508921019
 20
-288.2814460226
 10
796.3229229402
 20
-290.16740644
 10
800.0696647179
 20
-291.7484834549
 10
803.7743835766
 20
-293.0176155936
 10
807.4205333426
 20
-293.9691346038
 10
810.9918294258
 20
-294.5987907707
 10
814.4723215511
 20
-294.9037718969
 10
817.8464649956
 20
-294.8827158627
 10
821.0991900157
 20
-294.5357167095
 10
824.2159691519
 20
-293.8643242198
 10
827.1828821119
 20
-292.8715369953
 10
829.9866779421
 20
-291.5617890649
 10
832.6148342098
 20
-289.9409300806
 10
835.0556129312
 20
-288.0161991923
 10
837.2981129958
 20
-285.7961927153
 10
839.3323188541
 20
-283.2908257374
 10
841.1491452489
 20
-280.5112878358
 10
842.7404777925
 20
-277.4699931014
 10
844.0992092073
 20
-274.1805246949
 10
845.2192710692
 20
-270.6575741806
 10
846.0956609098
 20
-266.9168759108
 10
846.7244645595
 20
-262.9751367521
 10
847.1028736285
 20
-258.8499614682
 10
847.22919805
 20
-254.5597740936
  0
LWPOLYLINE
  5
CA
330
1F
100
AcDbEntity
  8
0
  6
Continuous
 62
     7
370
    25
100
AcDbPolyline
 90
       86
 70
   128
 43
0.0
 10
836.9054390446
 20
-248.5999948773
 10
836.7791525591
 20
-244.5832356215
 10
836.4009828356
 20
-240.4426072394
 10
835.7729953058
 20
-236.2007244071
 10
834.89861982
 20
-231.8807548179
 10
833.7826319139
 20
-227.5062926475
 10
832.4311267264
 20
-223.1012296914
 10
830.8514857102
 20
-218.6896248759
 10
829.0523363166
 20
-214.2955728567
 10
827.0435048759
 20
-209.9430724222
 10
824.8359629288
 20
-205.6558954204
 10
822.4417673038
 20
-201.4574569255
 10
819.8739942672
 20
-197.3706873526
 10
817.146668105
 20
-193.41790722
 10
814.2746845267
 20
-189.6207052419
 10
811.2737293109
 20
-185.999820419
 10
808.1601926343
 20
-182.5750287683
 10
804.9510795545
 20
-179.3650353144
 10
801.6639171343
 20
-176.3873719283
 10
798.316658715
 20
-173.6583015749
 10
794.9275858614
 20
-171.19272949
 10
791.515208514
 20
-169.0041217735
 10
788.0981638947
 20
-167.1044318417
 10
784.6951147163
 20
-165.5040351423
 10
781.3246472532
 20
-164.211672487
 10
778.00516983
 20
-163.2344023126
 10
774.7548122813
 20
-162.5775621298
 10
771.5913269329
 20
-162.2447393719
 10
768.5319916447
 20
-162.2377518015
 10
765.5935154452
 20
-162.5566375822
 10
762.7919472724
 20
-163.1996550705
 10
760.1425883201
 20
-164.1632923278
 10
757.6599084683
 20
-165.4422863016
 10
755.3574672534
 20
-167.0296515703
 10
753.2478398108
 20
-168.9167184953
 10
751.3425481941
 20
-171.0931805714
 10
749.6519984454
 20
-173.5471507175
 10
748.1854237612
 20
-176.2652261996
 10
746.9508340639
 20
-179.232561832
 10
745.9549722542
 20
-182.4329510564
 10
745.2032773841
 20
-185.8489144568
 10
744.6998549502
 20
-189.4617952255
 10
744.4474544713
 20
-193.2518610607
 10
744.4474544713
 20
-197.1984119371
 10
744.6998549502
 20
-201.2798931623
 10
745.2032773841
 20
-205.4740131012
 10
745.9549722542
 20
-209.7578649251
 10
746.9508340639
 20
-214.1080517208
 10
748.1854237612
 20
-218.5008142767
 10
749.6519984454
 20
-222.9121608469
 10
751.3425481941
 20
-227.3179981861
 10
753.2478398108
 20
-231.6942631388
 10
755.3574672534
 20
-236.0170540631
 10
757.6599084683
 20
-240.2627613742
 10
760.1425883201
 20
-244.408196491
 10
762.7919472724
 20
-248.4307184843
 10
765.5935154452
 20
-252.3083577341
 10
768.5319916447
 20
-256.0199359192
 10
771.5913269329
 20
-259.5451816869
 10
774.7548122813
 20
-262.8648413671
 10
778.00516983
 20
-265.9607841298
 10
781.3246472532
 20
-268.8161010093
 10
784.6951147163
 20
-271.4151972548
 10
788.0981638947
 20
-273.743877504
 10
791.515208514
 20
-275.789423313
 10
794.9275858614
 20
-277.5406626197
 10
798.316658715
 20
-278.9880307624
 10
801.6639171343
 20
-280.1236227183
 10
804.9510795545
 20
-280.9412362778
 10
808.1601926343
 20
-281.4364059192
 10
811.2737293109
 20
-281.6064271976
 10
814.2746845267
 20
-281.4503715159
 10
817.146668105
 20
-280.9690911959
 10
819.8739942672
 20
-280.1652148239
 10
822.4417673038
 20
-279.0431328938
 10
824.8359629288
 20
-277.6089738282
 10
827.0435048759
 20
-275.8705705064
 10
829.0523363166
 20
-273.8374174847
 10
830.8514857102
 20
-271.5206191396
 10
832.4311267264
 20
-268.9328290205
 10
833.7826319139
 20
-266.0881807396
 10
834.89861982
 20
-263.0022107793
 10
835.7729953058
 20
-259.6917736374
 10
836.4009828356
 20
-256.1749497737
 10
836.7791525591
 20
-252.4709468605
 10
836.9054390446
 20
-248.5999948773
  0
ENDSEC
  0
SECTION
  2
OBJECTS
  0
DICTIONARY
  5
C
330
0
100
AcDbDictionary
281
     1
  3
ACAD_GROUP
350
D
  3
ACAD_LAYOUT
350
1A
  3
ACAD_MLINESTYLE
350
17
  3
ACAD_PLOTSETTINGS
350
19
  3
ACAD_PLOTSTYLENAME
350
E
  3
ACAD_SCALELIST
350
47
  0
DICTIONARY
  5
D
102
{ACAD_REACTORS
330
C
102
}
330
C
100
AcDbDictionary
281
     1
  0
DICTIONARY
  5
1A
102
{ACAD_REACTORS
330
C
102
}
330
C
100
AcDbDictionary
281
     1
  3
Layout1
350
1E
  3
Layout2
350
26
  3
Model
350
22
  0
DICTIONARY
  5
17
102
{ACAD_REACTORS
330
C
102
}
330
C
100
AcDbDictionary
281
     1
  3
Standard
350
18
  0
DICTIONARY
  5
19
102
{ACAD_REACTORS
330
C
102
}
330
C
100
AcDbDictionary
281
     1
  0
ACDBDICTIONARYWDFLT
  5
E
102
{ACAD_REACTORS
330
C
102
}
330
C
100
AcDbDictionary
281
     1
  3
Normal
350
F
100
AcDbDictionaryWithDefault
340
F
  0
DICTIONARY
  5
47
102
{ACAD_REACTORS
330
C
102
}
330
C
100
AcDbDictionary
281
     1
  3
A0
350
48
  3
A1
350
49
  3
A2
350
4A
  3
A3
350
4B
  3
A4
350
4C
  3
A5
350
4D
  3
A6
350
4E
  3
A7
350
4F
  3
A8
350
50
  3
A9
350
51
  3
B0
350
52
  3
B1
350
53
  3
B2
350
54
  3
B3
350
55
  3
B4
350
56
  3
B5
350
57
  3
B6
350
58
  3
B7
350
59
  3
B8
350
5A
  3
B9
350
5B
  3
C0
350
5C
  3
C1
350
5D
  3
C2
350
5E
  3
C3
350
5F
  3
C4
350
60
  3
C5
350
61
  3
C6
350
62
  3
C7
350
63
  3
C8
350
64
  3
C9
350
65
  3
D0
350
66
  3
D1
350
67
  3
D2
350
68
  0
LAYOUT
  5
1E
102
{ACAD_REACTORS
330
1A
102
}
330
1A
100
AcDbPlotSettings
  1

  2
none_device
  4

  6

 40
0.0
 41
0.0
 42
0.0
 43
0.0
 44
0.0
 45
0.0
 46
0.0
 47
0.0
 48
0.0
 49
0.0
140
0.0
141
0.0
142
1.0
143
1.0
 70
   688
 72
     1
 73
     0
 74
     5
  7

 75
    16
147
1.0
148
0.0
149
0.0
100
AcDbLayout
  1
Layout1
 70
     1
 71
     1
 10
0.0
 20
0.0
 11
420.0
 21
297.0
 12
0.0
 22
0.0
 32
0.0
 14
1.0000000000E+20
 24
1.0000000000E+20
 34
1.0000000000E+20
 15
-1.0000000000E+20
 25
-1.0000000000E+20
 35
-1.0000000000E+20
146
0.0
 13
0.0
 23
0.0
 33
0.0
 16
1.0
 26
0.0
 36
0.0
 17
0.0
 27
1.0
 37
0.0
 76
     0
330
1B
  0
LAYOUT
  5
26
102
{ACAD_REACTORS
330
1A
102
}
330
1A
100
AcDbPlotSettings
  1

  2
none_device
  4

  6

 40
0.0
 41
0.0
 42
0.0
 43
0.0
 44
0.0
 45
0.0
 46
0.0
 47
0.0
 48
0.0
 49
0.0
140
0.0
141
0.0
142
1.0
143
1.0
 70
   688
 72
     1
 73
     0
 74
     5
  7

 75
    16
147
1.0
148
0.0
149
0.0
100
AcDbLayout
  1
Layout2
 70
     1
 71
     2
 10
0.0
 20
0.0
 11
0.0
 21
0.0
 12
0.0
 22
0.0
 32
0.0
 14
0.0
 24
0.0
 34
0.0
 15
0.0
 25
0.0
 35
0.0
146
0.0
 13
0.0
 23
0.0
 33
0.0
 16
1.0
 26
0.0
 36
0.0
 17
0.0
 27
1.0
 37
0.0
 76
     0
330
23
  0
LAYOUT
  5
22
102
{ACAD_REACTORS
330
1A
102
}
330
1A
100
AcDbPlotSettings
  1

  2
none_device
  4
Letter_(8.50_x_11.00_Inches)
  6

 40
6.35
 41
6.35
 42
6.35000508
 43
6.35000508
 44
215.9
 45
279.4
 46
0.0
 47
0.0
 48
0.0
 49
0.0
140
0.0
141
0.0
142
1.0
143
1.0
 70
  1712
 72
     1
 73
     0
 74
     0
  7

 75
     0
147
1.0
148
0.0
149
0.0
100
AcDbLayout
  1
Model
 70
     1
 71
     0
 10
0.0
 20
0.0
 11
279.4
 21
215.9
 12
0.0
 22
0.0
 32
0.0
 14
0.0
 24
0.0
 34
0.0
 15
279.4
 25
215.9
 35
0.0
146
0.0
 13
0.0
 23
0.0
 33
0.0
 16
1.0
 26
0.0
 36
0.0
 17
0.0
 27
1.0
 37
0.0
 76
     0
330
1F
331
29
  0
MLINESTYLE
  5
18
102
{ACAD_REACTORS
330
17
102
}
330
17
100
AcDbMlineStyle
  2
Standard
 70
     0
  3

 62
   256
 51
90.0
 52
90.0
 71
     2
 49
0.5
 62
   256
  6
BYLAYER
 49
-0.5
 62
   256
  6
BYLAYER
  0
ACDBPLACEHOLDER
  5
F
102
{ACAD_REACTORS
330
E
102
}
330
E
  0
SCALE
  5
48
102
{ACAD_REACTORS
330
47
102
}
330
47
100
AcDbScale
 70
     0
300
1:1
140
1.0
141
1.0
290
     1
  0
SCALE
  5
49
102
{ACAD_REACTORS
330
47
102
}
330
47
100
AcDbScale
 70
     0
300
1:2
140
1.0
141
2.0
290
     0
  0
SCALE
  5
4A
102
{ACAD_REACTORS
330
47
102
}
330
47
100
AcDbScale
 70
     0
300
1:4
140
1.0
141
4.0
290
     0
  0
SCALE
  5
4B
102
{ACAD_REACTORS
330
47
102
}
330
47
100
AcDbScale
 70
     0
300
1:5
140
1.0
141
5.0
290
     0
  0
SCALE
  5
4C
102
{ACAD_REACTORS
330
47
102
}
330
47
100
AcDbScale
 70
     0
300
1:8
140
1.0
141
8.0
290
     0
  0
SCALE
  5
4D
102
{ACAD_REACTORS
330
47
102
}
330
47
100
AcDbScale
 70
     0
300
1:10
140
1.0
141
10.0
290
     0
  0
SCALE
  5
4E
102
{ACAD_REACTORS
330
47
102
}
330
47
100
AcDbScale
 70
     0
300
1:16
140
1.0
141
16.0
290
     0
  0
SCALE
  5
4F
102
{ACAD_REACTORS
330
47
102
}
330
47
100
AcDbScale
 70
     0
300
1:20
140
1.0
141
20.0
290
     0
  0
SCALE
  5
50
102
{ACAD_REACTORS
330
47
102
}
330
47
100
AcDbScale
 70
     0
300
1:30
140
1.0
141
30.0
290
     0
  0
SCALE
  5
51
102
{ACAD_REACTORS
330
47
102
}
330
47
100
AcDbScale
 70
     0
300
1:40
140
1.0
141
40.0
290
     0
  0
SCALE
  5
52
102
{ACAD_REACTORS
330
47
102
}
330
47
100
AcDbScale
 70
     0
300
1:50
140
1.0
141
50.0
290
     0
  0
SCALE
  5
53
102
{ACAD_REACTORS
330
47
102
}
330
47
100
AcDbScale
 70
     0
300
1:100
140
1.0
141
100.0
290
     0
  0
SCALE
  5
54
102
{ACAD_REACTORS
330
47
102
}
330
47
100
AcDbScale
 70
     0
300
2:1
140
2.0
141
1.0
290
     0
  0
SCALE
  5
55
102
{ACAD_REACTORS
330
47
102
}
330
47
100
AcDbScale
 70
     0
300
4:1
140
4.0
141
1.0
290
     0
  0
SCALE
  5
56
102
{ACAD_REACTORS
330
47
102
}
330
47
100
AcDbScale
 70
     0
300
8:1
140
8.0
141
1.0
290
     0
  0
SCALE
  5
57
102
{ACAD_REACTORS
330
47
102
}
330
47
100
AcDbScale
 70
     0
300
10:1
140
10.0
141
1.0
290
     0
  0
SCALE
  5
58
102
{ACAD_REACTORS
330
47
102
}
330
47
100
AcDbScale
 70
     0
300
100:1
140
100.0
141
1.0
290
     0
  0
SCALE
  5
59
102
{ACAD_REACTORS
330
47
102
}
330
47
100
AcDbScale
 70
     0
300
1/128" = 1'-0"
140
0.0078125
141
12.0
290
     0
  0
SCALE
  5
5A
102
{ACAD_REACTORS
330
47
102
}
330
47
100
AcDbScale
 70
     0
300
1/64" = 1'-0"
140
0.015625
141
12.0
290
     0
  0
SCALE
  5
5B
102
{ACAD_REACTORS
330
47
102
}
330
47
100
AcDbScale
 70
     0
300
1/32" = 1'-0"
140
0.03125
141
12.0
290
     0
  0
SCALE
  5
5C
102
{ACAD_REACTORS
330
47
102
}
330
47
100
AcDbScale
 70
     0
300
1/16" = 1'-0"
140
0.0625
141
12.0
290
     0
  0
SCALE
  5
5D
102
{ACAD_REACTORS
330
47
102
}
330
47
100
AcDbScale
 70
     0
300
3/32" = 1'-0"
140
0.09375
141
12.0
290
     0
  0
SCALE
  5
5E
102
{ACAD_REACTORS
330
47
102
}
330
47
100
AcDbScale
 70
     0
300
1/8" = 1'-0"
140
0.125
141
12.0
290
     0
  0
SCALE
  5
5F
102
{ACAD_REACTORS
330
47
102
}
330
47
100
AcDbScale
 70
     0
300
3/16" = 1'-0"
140
0.1875
141
12.0
290
     0
  0
SCALE
  5
60
102
{ACAD_REACTORS
330
47
102
}
330
47
100
AcDbScale
 70
     0
300
1/4" = 1'-0"
140
0.25
141
12.0
290
     0
  0
SCALE
  5
61
102
{ACAD_REACTORS
330
47
102
}
330
47
100
AcDbScale
 70
     0
300
3/8" = 1'-0"
140
0.375
141
12.0
290
     0
  0
SCALE
  5
62
102
{ACAD_REACTORS
330
47
102
}
330
47
100
AcDbScale
 70
     0
300
1/2" = 1'-0"
140
0.5
141
12.0
290
     0
  0
SCALE
  5
63
102
{ACAD_REACTORS
330
47
102
}
330
47
100
AcDbScale
 70
     0
300
3/4" = 1'-0"
140
0.75
141
12.0
290
     0
  0
SCALE
  5
64
102
{ACAD_REACTORS
330
47
102
}
330
47
100
AcDbScale
 70
     0
300
1" = 1'-0"
140
1.0
141
12.0
290
     0
  0
SCALE
  5
65
102
{ACAD_REACTORS
330
47
102
}
330
47
100
AcDbScale
 70
     0
300
1-1/2" = 1'-0"
140
1.5
141
12.0
290
     0
  0
SCALE
  5
66
102
{ACAD_REACTORS
330
47
102
}
330
47
100
AcDbScale
 70
     0
300
3" = 1'-0"
140
3.0
141
12.0
290
     0
  0
SCALE
  5
67
102
{ACAD_REACTORS
330
47
102
}
330
47
100
AcDbScale
 70
     0
300
6" = 1'-0"
140
6.0
141
12.0
290
     0
  0
SCALE
  5
68
102
{ACAD_REACTORS
330
47
102
}
330
47
100
AcDbScale
 70
     0
300
1'-0" = 1'-0"
140
12.0
141
12.0
290
     0
  0
ENDSEC
  0
EOF
